Date: Sat, 29 Mar 2003 13:01:17 +0100 (CET)
From: Davide Del Mestre 
Subject: b/bruni_carla/quelquun_ma_dit.tab

Carla Bruni - Quelqu'un M'a Dit
Tab by Davide Del Mestre ^ davidedelmestre@yahoo.it 
(Solo is not very good!! I^m sorry.)

   Bb       F        Gm       Eb
e---------|--------|--------|--------|
B------3--|--------|--------|-----8--|
G----3--3-|-----2--|-----3--|---8--8-|
D---3-3---|---3--3-|---5--5-|--8-8---|  Riff
A--1------|--3-3---|--5-5---|-6------|
E---------|-1------|-3------|--------|

Intro:

   Bb      
e---------|
B------3--|
G----3--3-|
D---3-3---|   x 4
A--1------|
E---------|

Verse: Riff x 2

Chorus: Riff x 4 like this...

                       Bb
pourtant quelqu'un m'a dit           
F      Gm        Eb                   
Que tu m'aimais encore,               
                        Bb          
C'est quelqu'un qui m'a dit           
F      Gm        Eb                   
que tu m'aimais encore.              
                      Bb    F Gm Eb Bb F Gm Eb 
Serais ce possible alors ?            

Verse x 1
Chorus x 1
Verse x 1           
Chorus x 1

Solo:
 Bb                F                 
e-----------------|-----------------|
B-----------------|-----------------|
G-----------10----|-----------7---8-|
D---8-------------|---8--10---------|
A-----------------|-----------------|
E-----------------|-----------------|
 Gm                Eb
e-----------------|---8--10--11--13-|
B-------8--10--11-|-----------------|
G--10-------------|-----------------|
D-----------------|-----------------|
A-----------------|-----------------|
E-----------------|-----------------|
 Bb                F
e-----------------|-----------------|
B-----------------|-----------------|
G-----------------|-----------------|
D-----------------|-----------------|
A-----------------|-----------------|
E-----------------|-----------------|
 Gm                Eb
e-----------------|-3-5-6-5/6/5-3---|
B-----------------|-----------------|
G-----------------|-----------------|
D-----------------|-----------------|
A-----------------|-----------------|
E-----------------|-----------------|
 Bb                F
e-----------------|-----------------|
B---6---8---6-----|-----------------|
G---------------8-|--------------10-|
D-----------------|-------8--10-----|
A-----------------|-----------------|
E-----------------|-----------------|
 Gm                Eb
e-----------------|-----------------|
B-----------------|-----------6~~~--|
G-----------------|---7-------------|
D-----------7---8-|-------8---------|
A---8--10---------|-----------------|
E-----------------|-----------------|
 Bb                F                                
e-----------------|-----------------|
B-----------------|-----------------|
G---8---7---------|-----------------|
D----------10---8-|--12--12^--10\12-|
A-----------------|-----------------|
E-----------------|-----------------|
 Gm                Eb
e-----------------|-----------------|
B-----------------|-----------------|
G-----------------|-----------------|
D--10---8~~~~~ ---|-----------------|
A-----------------|-----------------|
E-----------------|-----------------|

Verse x 1
Chorus x 1
Riff at lib.